Jump to content

Recommended Posts

Can any kind soul Tab out for me or explain what Krieger is playing here Form 3:30 to 3:46? I know it’s some licks and a scale,  I’m just too shitty a guitarist to know them types of things!

:lol:
 

 

Edited by Powderfinger
Link to post
Share on other sites
eb|--------------15----14-----|--------------15----14-----|
Bb|-----15--------------------|-----15--------------------|
Gb|--------14-12----14----14--|--------14-12----14----14--|
Db|--12-----------------------|--12-----------------------|
Ab|---------------------------|---------------------------|
Eb|---------------------------|---------------------------|
     
eb|--------------15----14-----|--------------15----14-----|
Bb|-----15--------------------|-----15--------------------|
Gb|--------14-12----14----14--|--------14-12----14----14--|
Db|--14-----------------------|--14-----------------------|
Ab|---------------------------|---------------------------|
Eb|---------------------------|---------------------------|  
     
eb|--------------15----14-----|--------------15----14-----|
Bb|-----15--------------------|-----15--------------------|
Gb|--12----14-12----14----14--|--12----14-12----14----14--|
Db|---------------------------|---------------------------|
Ab|---------------------------|---------------------------|
Eb|---------------------------|---------------------------|
     
eb|--------------15----14-----|--------------15----14-----|
Bb|-----15--------------------|-----15--------------------|
Gb|--------14-12----14----14--|--------14-12----14----14--|
Db|--12-----------------------|--12-----------------------|
Ab|---------------------------|---------------------------|
Eb|---------------------------|---------------------------|
  • Haha 2
Link to post
Share on other sites

Alright, for real this time. It's A minor pentatonic blues scale, I suck at tabbing so feel free to correct, but it probably is something like this:

 

e|---------------------------------------------------------------------|
B|---------------------------------------------------------------------|
G|--7b-7b-5-7-5-----7b-7b-5-7-5---------------7b-7po5---5---7b-7po5--5-|
D|-------------------------------7-5------------------7------------7---|
A|-----------------------------------7-6-5-----------------------------|
E|---------------------------------------------------------------------|
e|---------------------------------------------------------------------|
B|---------------------------------------------------------------------|
G|-7b-7b-7b-5-7-5------------------------------------------------------|
D|----------------7-5--------------------------------------5--5--7-5-7-|
A|---------------------7-6-5-----------------5---5---7-5-7-------------|
E|----------------------------8-5--5-5-8-5-8---8-----------------------|

 

e|---------------------------------------------------------------------|
B|---------------------------------------------------------------------|
G|--5---5---7b---------------------------------------------------------|
D|----7----------------------------------------------------------------|
A|---------------------------------------------------------------------|
E|---------------------------------------------------------------------|

 

 

 

  • Thanks 1
Link to post
Share on other sites

Join the conversation

You can post now and register later. If you have an account, sign in now to post with your account.
Note: Your post will require moderator approval before it will be visible.

Guest
Reply to this topic...

×   Pasted as rich text.   Paste as plain text instead

  Only 75 emoji are allowed.

×   Your link has been automatically embedded.   Display as a link instead

×   Your previous content has been restored.   Clear editor

×   You cannot paste images directly. Upload or insert images from URL.

  • Recently Browsing   0 members

    No registered users viewing this page.

×
×
  • Create New...