Jump to content

The Blues solo tab by Voodoochild (with mp3)


Recommended Posts

Here's my new version of The Blues (mixed with Pittsburgh without Axl):

http://downloads.thenewguns.com/voodoo/voo...ithaxlcover.mp3

Thanks to rainX and cb from www.thenewguns.com again for hosting the file! You guys rock! :D

Here's the tab for Robin's solo... I know it needs some fix here and there, but I think it's pretty much like that. (Copy the tab to the notepad and it will be in the right way):

The Blues solo (by Voodoochild):

Starts with the neck humbucker:

E:--10/12\10--10--10/8--8h7p8-8h7p8-7----------------------------------------------------------|

B:-------------------------------------10-8-10-10b-10b-10b--10br10--8--8h10p8p6----------------|

G:---------------------------------------------------------------------------------------------|

D:---------------------------------------------------------------------------------------------|

A:---------------------------------------------------------------------------------------------|

E:---------------------------------------------------------------------------------------------|

E:----------------------------------------------10-12--12b--12br12--10-------------------------|

B:--3\6--5/6\8--8/10--6h8p6---8\10--10/12----12------------------------------------------------|

G:--------------------------7-------------12---------------------------------------------------|

D:---------------------------------------------------------------------------------------------|

A:---------------------------------------------------------------------------------------------|

E:---------------------------------------------------------------------------------------------|

E:--8\10--8p7h8--7-----------------------------------------------------------------------------|

B:-----------------8---(8)\10/12--10br(10)\8--10-----------------------------------------------|

G:-------------------7----------------------------9--------------------------------------------|

D:---------------------------------------------------------------------------------------------|

A:---------------------------------------------------------------------------------------------|

E:---------------------------------------------------------------------------------------------|

With wha-wha:

E:-11~-10h11p10----------13~-11h13p11p10h11p10----------13\15~-13-15-17-18-17-17-15----18-22-24br24br24-|

B:-------------13-11-------------------------13p11----------------------------------18------------------|

G:-------------------12----------------------------12---------------------------------------------------|

D:------------------------------------------------------------------------------------------------------|

A:------------------------------------------------------------------------------------------------------|

E:------------------------------------------------------------------------------------------------------|

Switch to the bridge humbucker

E:-20-18-20\22-22br(22)-18-18-22-18-17-15-17-17br(17)--10br(10)--8-6---6-6h8-8~----8----8~-8~--|

B:-------------------------------------------------------------------7---------7b--7b---7--7---|

G:---------------------------------------------------------------------------------------------|

D:---------------------------------------------------------------------------------------------|

A:---------------------------------------------------------------------------------------------|

E:---------------------------------------------------------------------------------------------|

E:--13-12-10-----------------------------7---19------------------------------------------------|

B:-----------13-12-10----10h12---13p12----8-----20---------------------------------------------|

G:--------------------12-----------------------------------------------------------------------|

D:---------------------------------------------------------------------------------------------|

A:---------------------------------------------------------------------------------------------|

E:---------------------------------------------------------------------------------------------|

Right after Finck, Fortus fills:

E:---------------------------------------------------------------------------------------------|

B:-----------------------------------------------------7h8-------------------------------------|

G:-----------------------------------------------------7---------------------------------------|

D:---------------------------------------------------------------------------------------------|

A:---------------------------------------------------------------------------------------------|

E:---------------------------------------------------------------------------------------------|

b = bend

br = bend release

\ = slide

h = hammer-on

p = pull-off

~ = vibrato

Link to comment
Share on other sites

Join the conversation

You can post now and register later. If you have an account, sign in now to post with your account.
Note: Your post will require moderator approval before it will be visible.

Guest
Reply to this topic...

×   Pasted as rich text.   Paste as plain text instead

  Only 75 emoji are allowed.

×   Your link has been automatically embedded.   Display as a link instead

×   Your previous content has been restored.   Clear editor

×   You cannot paste images directly. Upload or insert images from URL.

  • Recently Browsing   0 members

    • No registered users viewing this page.
×
×
  • Create New...